Автор Тема: Jibboom! (Вайчик)  (Прочитано 2211 раз)

0 Пользователей и 1 Гость просматривают эту тему.

Оффлайн Tango

  • Эксперт
  • *****
  • Сообщений: 2616
  • Репутация: +10/-15
  • танцор. хороший.
    • http://
Jibboom! (Вайчик)
« Ответ #45 : Апреля 25, 2002, 12:46:27 »
дополнение - она технически как wah-wah, то есть физически ты делаешь плавное или резкое портаменто вверх а потом можешь опять вниз. а еще ее можно настроить наоборот - качаешь ее вверх, а нота падает вниз. и кстати не обязательно на октаву, с интервалом тоже можно играцца

Оффлайн BLACK-JACK

  • Новичок
  • *
  • Сообщений: 63
  • Репутация: +0/-0
  • Зарегистрированный
    • http://
Jibboom
« Ответ #46 : Апреля 25, 2002, 13:25:37 »
------------------------------------------------------------------0---0-----------
---5--0---5--3---0---------------------------------------------0---0----------------------------------4--2---0---------------------------------------------------
----------------------------------4--2---0---------------------------------------------------------------------------------------4--2---0---2----------------------
------------------------------------------------------------0--------------3----0-



-----------0-----------------------------------------------------------------------
-----------0-----------------------------------------------------------------------
------------------------------------------------------------------------------------
-----2-----------------------------------------------------------------------------
------------------------------------------------------------------------------------
------------------------------------------------------------------------------------
Perechod:
--------------------------------------------------5---------5---3----------------
--5---0--5---3---0-----------------------------5---------5---3---------------
-----------------------4--2--0------------------2-----6------------------------
---------------------------------4--2--0---2----2-------------------------------
---------------------------------------------0-------------------------------------
------------------------------------------------------------------------------------


-------------------------------------------------------------7---5----------------
---5---0---5--3--0----------------------------------------7---5----------------
----------------------4--2--0------------------4-----8--------------------------
--------------------------------4--2--0--------4---------------------------------
-------------------------------------------2----2---------------------------------
------------------------------------------------------------------------------------
Konez Intro:

--------------------------------------------------0-0-----------------------------
--5--0--5--3--0--------------------------------0-0-----------------------------
--------------------4--2--0-------------------------------------------------------
------------------------------4-2-0--------------------------2----p.h.----------
--------------------------------------4-2-0--2--------------------4------------
-----------------------------------------------0--------3-0-----------------------


-----------------------------------------5-0-----0--------------------------------
---5-3-0-------------------------------------5-----5-3-0-----0-----------------
-----------4-2-0--------------------------------------------4----4-2-0---------
-------------------4-2-0---------------------------------------------------2-----
--------------------------4-2-0---------------------------------------------------
-----------------------------------0-----------------------------------------------
BIG SIG

Оффлайн BLACK-JACK

  • Новичок
  • *
  • Сообщений: 63
  • Репутация: +0/-0
  • Зарегистрированный
    • http://
Jibboom! (Вайчик)
« Ответ #47 : Апреля 25, 2002, 13:27:56 »
Blja tschto to chujowo polutschilos , kogda pisal wrode
normalno wigljadelo.Iswenjajus pered wsemi.
Nadejus prostite tschto stolko mesta sanjal
BIG SIG

Оффлайн Tango

  • Эксперт
  • *****
  • Сообщений: 2616
  • Репутация: +10/-15
  • танцор. хороший.
    • http://
Jibboom! (Вайчик)
« Ответ #48 : Апреля 25, 2002, 13:37:05 »
ладно старик не расстраивайся:) все самое главное там видно. но лучше все-таки сканы, потомучто там в соло есть гораздо более непонятные моменты.

Оффлайн Jibboom

  • Частый посетитель
  • **
  • Сообщений: 127
  • Репутация: +0/-1
  • недосягаемый
Jibboom! (Вайчик)
« Ответ #49 : Апреля 26, 2002, 04:09:41 »
Джиббуум с надеждой ждёт отсканенный вариант Jibboom'a !

А вот вам ещё ваучеры !
Хотите послушать, как эту замечательную пьесу безобразно и крайне бездарно исполняет некий Grrrpoppp из славного городишки New Castle from Туманный Альбион. (хотя для ученика ~3-го года муз-колледжа, если он таковым является, весьма и весьма не дурно)
Нужно просто быстро нажать вот тут!!!

Хотя, грубо конечно я говорю (видимо сгоряча). Видимо парень просто взял да и выложил свой вариант, для всеобщего обозрения.

Мой вердикт такой: уверенная, явно заслуженная по праву троечка (удовл.) 3 !!!

зы: У меня кстати тоже есть две книги Time Machine.(к слову Осатче)
Там же у этого вышеперечисленного персонажа лежит, так-же любезно записанная тов.Гррпопом, хорошо всем нам известная пьеска по многочисленной и не менее известной рекламки популярных гигиенических средств. Но для этого вам нужно обязательно клацнуть по  ЭТОМУ месту. Ну и конечно предварительно ознакомившись с самим исполнителем сих опусов.Здесь на этих фотографиях вы увидите человека, пребывающем явно в диком восторженном пафосе от того, что он держит в руках не менее пафосный JS1000 (видимо местная буржуйская цензура посчитала
так: размещаем что нибудь одно или Гитару или физиономию Грр-попу) see here :D :D :D

В принципе такой-же рядовой концерт по заявкам, только там.
Там, только там, только там.
Пап-па-па-рурай.  

Люди пишутся, потом выкладывают у себя. Ничего страшного. У нас тоже так. Верно ?

By-by ! Jibboom. Ну и если вы дочитали это сообщение до этих строчечек то Jibboom может с вами со всеми поделиться вот таким мааленьким файликом Но всё-же хочется поиметь отсканенный вариант. Уиииииииииииииииииии-уииииииииии.
...omnia mea mecum porto

Оффлайн jaasco

  • Эксперт
  • *****
  • Сообщений: 2727
  • Репутация: +8/-17
  • Пульвелизатор ;)
    • http://
Jibboom! (Вайчик)
« Ответ #50 : Апреля 26, 2002, 10:43:01 »
full~~~
----------7)--|
--------10----|
вот радуют меня такие вещи в табах.... это вообще что значит? седьмой лад тянуть зажав при этом десятый на второй? у меня конечно гитары нету под рукой но что то я в этом сомневаюсь.... а не , наверо все таки 10 тянуть на тон чтоб унисон получился... ну ладно...
пук пук

Оффлайн BLACK-JACK

  • Новичок
  • *
  • Сообщений: 63
  • Репутация: +0/-0
  • Зарегистрированный
    • http://
2 jaasco
« Ответ #51 : Апреля 26, 2002, 10:53:10 »
10 lada W natschale tam i netu. Ja sche usche goworil
tschto kogda ja wse eto pisal normalno wigljadelo .
A potom wse rasoschlos w rasnije storoni.
BIG SIG

Оффлайн jaasco

  • Эксперт
  • *****
  • Сообщений: 2727
  • Репутация: +8/-17
  • Пульвелизатор ;)
    • http://
Jibboom! (Вайчик)
« Ответ #52 : Апреля 26, 2002, 11:03:24 »
BJ а я не про тебя. я про тот файл что Джиббом выложил
пук пук

Оффлайн BLACK-JACK

  • Новичок
  • *
  • Сообщений: 63
  • Репутация: +0/-0
  • Зарегистрированный
    • http://
Jibboom! (Вайчик)
« Ответ #53 : Апреля 29, 2002, 12:21:50 »
Pazani a kak etot backing track(Jibboom) swutschit kotorij
leschit na etom saite.Pchosch chot na original?
BIG SIG

Оффлайн Old TСR

  • Эксперт
  • *****
  • Сообщений: 1295
  • Репутация: +4/-0
  • ††† 2002-2005
    • http://
Jibboom! (Вайчик)
« Ответ #54 : Апреля 30, 2002, 03:52:52 »
2BLACK-JACK Хороший backing track.

Когда можно ожидать сканы Jibbooma?

Или быстрее снять? All Alone я уже снял, могу выслать на мыло. Но жалко время тратить на то, что уже есть в природе. Лучше снять что-нибудь, чего еще нет.

А ты не мог бы мне еще отсканить Speed Of Light?

Оффлайн Attitude

  • Живу на форуме
  • *******
  • Сообщений: 7580
  • Репутация: +795/-190
  • I'm listening!
Jibboom! (Вайчик)
« Ответ #55 : Апреля 30, 2002, 05:07:33 »
А это откуда?
keeping it funky without slap and pop is skill.

Оффлайн Old TСR

  • Эксперт
  • *****
  • Сообщений: 1295
  • Репутация: +4/-0
  • ††† 2002-2005
    • http://
Jibboom! (Вайчик)
« Ответ #56 : Апреля 30, 2002, 07:22:18 »
2Attitude - ты уравновешиваешь мою многословность: "я против", "это откуда"... Так и хочется ответить "оттуда" :)
Приходится только догадываться, о чем ты спросил. Если про Speed Of Light - то с Time Machine Satriani.
Как там, кстати Warm Regards себя чувствует? Ты просил тебе напоминать. Может будешь посылать мне по-немногу?

Оффлайн Attitude

  • Живу на форуме
  • *******
  • Сообщений: 7580
  • Репутация: +795/-190
  • I'm listening!
***Old TСR
« Ответ #57 : Апреля 30, 2002, 07:49:47 »
А что делать? Всё в этом мире уравновешано! :)

Скорее всего завтра поеду сканить!:cool:
Что там ещё кроме "Warm Regards" было?
keeping it funky without slap and pop is skill.

Оффлайн Old TСR

  • Эксперт
  • *****
  • Сообщений: 1295
  • Репутация: +4/-0
  • ††† 2002-2005
    • http://
Jibboom! (Вайчик)
« Ответ #58 : Апреля 30, 2002, 09:06:57 »
Где там? У Стива Вая? Щас перечислю... :)
 
А если то? что я спрашивал -
Jeff Beck - "Cause We've Ended As Lovers"
SVai - "Jimboom", "Hand On Heart", "Dyin'Day","Widows2theSouls" (т.е. Окна, а не Вдовы, етить его)
Satriani "Until We Say Goodbye", "Speed Of Light"

Это почти весь список стареньких вещей, которые я ищу - пусть реквест в одном месте лежит.

Оффлайн BLACK-JACK

  • Новичок
  • *
  • Сообщений: 63
  • Репутация: +0/-0
  • Зарегистрированный
    • http://
Jibboom! (Вайчик)
« Ответ #59 : Апреля 30, 2002, 10:31:45 »
Otskanirowat smogu tolko posle 10 Maja,Kompjuternie kursi
kogda kontschatsja i wremeni budet pobolsche.Ransche
nawrjatli polutschitsja.
BIG SIG