Автор Тема: Упр.  (Прочитано 5581 раз)

0 Пользователей и 1 Гость просматривают эту тему.

Оффлайн Reload Автор темы

  • Эксперт
  • *****
  • Сообщений: 2898
  • Репутация: +124/-14
  • שלום :)
Упр.
« : Мая 01, 2002, 18:38:38 »
Я тут придумал упражнение... на координацию и точность пикинга. До ужаса простое и знакомое "1234", но такого же я ещё не встречал. К тому же, всё гени(т)ально - просто. :D

После 2-х - 3-х "проходов" этим упром по грифу (до 12 лада), медиатор просто порхает как... как... э.... как обкуренный воробей, с холодной, алчной рассчётливостью ищущий и поглощающий хлебные крошки :D :D ЖВ

Значит, играем по стандартной 1234-шной системе, т.е. опускаемся (поднимаемся?) с 6-й струны до 2-й, обратно и переходим на следующий лад:
1)
5|-----------1------------------2-------|----------3------------------------4--|
6|-1-2-3-4---4-3-2-1-2-3-4---4-3-2-|-1-2-3-4---4-3-2-1-2-3-4-3-2-1----|

4|-----------1----------------2---------|------------3------------------------4-|
5|-1-2-3-4---4-3-2-1-2-3-4---4-3-2---|-1-2-3-4---4-3-2-1-2-3-4-3-2-1---|
6|---------------------------------------|-------------------------------------|

То же, но с зеркально изменённой последовательностью:
2)
5|----------4-----------------3-------|------------2-------------------------1---|
6|-4-3-2-1---1-2-3-4-3-2-1---1-2-3-|-4-3-2-1---1-2-3-4-3-2-1-2-3-4-----|

4|----------4-----------------3-------|------------2-------------------------1---|
5|-4-3-2-1---1-2-3-4-3-2-1---1-2-3-|-4-3-2-1---1-2-3-4-3-2-1-2-3-4-----|
6|---------------------------------|-----------------------------------|

При желании играем через струну:
3)
4|----------1-----------------2-------|------------3-------------------------4---|
5|-------------------------------------|-----------------------------------------|
6|-1-2-3-4---4-3-2-1-2-3-4---4-3-2-|-1-2-3-4---4-3-2-1-2-3-4-3-2-1-----|

Со мной эта штука работает на все 99,9%. Медиатор действительно лЁтает!

Один важный аспект, о котором вы и так прекрасно знаете :) Нужно регулярно менять направление ударов М на первой ноте. Начинаем с "вниз", идём до 12-го лада, возвращаемся, начинаем с "вверх".

Буду рад, если это кому-то поможет!

Удачи!
;)
"There are times when simply thinking about your playing can improve it just as much as any amount of hours spent with a metronom" ..Guthrie Govan..

Оффлайн Old TСR

  • Эксперт
  • *****
  • Сообщений: 1295
  • Репутация: +4/-0
  • ††† 2002-2005
    • http://
ГЛЮЧИТ ФОРУМ ОДНАКО
« Ответ #1 : Мая 01, 2002, 20:32:35 »
Ы!!!

Оффлайн Old TСR

  • Эксперт
  • *****
  • Сообщений: 1295
  • Репутация: +4/-0
  • ††† 2002-2005
    • http://
COOL
« Ответ #2 : Мая 01, 2002, 20:33:49 »
Молодец! Спасибо, что поделился.
Действительно, столько вариантов этого 1234, а такого мне еще не попадалось. Надо Петруччи послать - он их, кажется, в какую-то свою картотеку заносит (судя по видео школе).

PS Теперь с подачей вопрос решен? :D

Оффлайн Reload Автор темы

  • Эксперт
  • *****
  • Сообщений: 2898
  • Репутация: +124/-14
  • שלום :)
Глючит, но постит!!!
« Ответ #3 : Мая 01, 2002, 20:50:58 »
Та не за что! Всегда рад, как г-цца :)

А что там с подачей? Если ты про трэд, то эта, "поезд останавился на станции "Разногласия". Впрочем, он почти всегда там останавливается :D
"There are times when simply thinking about your playing can improve it just as much as any amount of hours spent with a metronom" ..Guthrie Govan..

Оффлайн Old TСR

  • Эксперт
  • *****
  • Сообщений: 1295
  • Репутация: +4/-0
  • ††† 2002-2005
    • http://
Упр.
« Ответ #4 : Мая 02, 2002, 07:54:59 »
Да нет, я имел ввиду, что раз упражнение придумал, значит вроде как с техникой вопрос решен, а значит, как бы, и с подачей? :rolleyes:

Оффлайн Old TСR

  • Эксперт
  • *****
  • Сообщений: 1295
  • Репутация: +4/-0
  • ††† 2002-2005
    • http://
Упр.
« Ответ #5 : Мая 10, 2002, 11:30:59 »
.

Оффлайн Steel Guitarist

  • Частый посетитель
  • **
  • Сообщений: 108
  • Репутация: +2/-0
  • Зарегистрированный
    • http://musictheory.newmail.ru
Re: ТАБЛЕТКИ ДЛЯ SPEED'А
« Ответ #6 : Мая 10, 2002, 11:47:35 »
Цитировать
Originally posted by Old TСR
Присылайте новые нестандартные версии 1234! Можно что-нибудь  в диатонике.


1|------2----------------------
2|---------------4---------------
3|---------------------3-------
4|----------------------------
5|----------3-------------------
6|--1----------------------2------

Оффлайн Reload Автор темы

  • Эксперт
  • *****
  • Сообщений: 2898
  • Репутация: +124/-14
  • שלום :)
Упр.
« Ответ #7 : Мая 10, 2002, 12:59:33 »
***Old TСR
Чтобы звучало прикольнее :) Ещё, чтобы каждый палец постоянно находился в движении, чтобы не ставить баре и чтобы менялось направление медиатора на последней ноте. Последнее, помоему, очень важно для развития координации. Надо вносить непереодические изменения в симетричность таких упражнений, чтобы, как ты заметил, работал и спинной мозг и центральная нервная система, полностью контролируя движения пальцев и медиатора, а не просто отрешённо пиля :)


Вот ещё интересное упражнение Мэя:


5-----2------4---|--2-----4-----|
6--1------3------|-----3------5-|

:)
"There are times when simply thinking about your playing can improve it just as much as any amount of hours spent with a metronom" ..Guthrie Govan..

Оффлайн _NiCkY_

  • Завсегдатай
  • ***
  • Сообщений: 292
  • Репутация: +2/-1
  • Протрезвел....
    • http://www.live.times.lv/Man/1.asp
Вот ещё очень похожее упражнение
« Ответ #8 : Мая 10, 2002, 13:42:16 »
Называется паук:


|------------------------------------|
|------------------------------------|
|--------------------7---8---9---10-|
|----7---8---5---6------------------|
|------------------5---6---7---8----|
|--5---6---7---8--------------------|

--------------------8---9---6---7-|
----8---9---6---7-----------------|
------------------5---6---7---8---|
--5---6---7---8-------------------|
-----------------------------------|
-----------------------------------|


Назад вверх можно идти так:


|--7---6---9---8-------------------|
|------------------7---6---9---8---|
|----8---7---6---5-----------------|
|--------------------8---7---6---5-|
|-----------------------------------|
|-----------------------------------|

-----------------------------------|
-----------------------------------|
--6---5---8---7-------------------|
------------------6---5---8---7---|
----8---7---6---5-----------------|
--------------------8---7---6---5-|
Всем всего... _-NiCkY-_

Оффлайн STRELEC

  • Опытный
  • ****
  • Сообщений: 725
  • Репутация: +1/-4
  • Зарегистрированный
    • http://
Упр.
« Ответ #9 : Мая 10, 2002, 17:12:06 »
 А если переделать немного последнее упражнение Old TCR, то получится вот такая порнуха, очень сложно сиграть.

5---2-3--3-2-1-----4------
6-1-----4-------2-3---3-2-

Оффлайн STRELEC

  • Опытный
  • ****
  • Сообщений: 725
  • Репутация: +1/-4
  • Зарегистрированный
    • http://
2 Reload
« Ответ #10 : Мая 10, 2002, 17:18:24 »
 Я чото не понял что ты имеешь в виду про "важный оспект". Все упрожнение нужно играть переменным штрихом, первый раз начинать ударом вниз а потом играть все заново начиная ударом вверх, так чтоли? Исправь если я не так тебя понял.

Оффлайн Old TСR

  • Эксперт
  • *****
  • Сообщений: 1295
  • Репутация: +4/-0
  • ††† 2002-2005
    • http://
Упр.
« Ответ #11 : Мая 11, 2002, 01:14:47 »
.

Оффлайн Reload Автор темы

  • Эксперт
  • *****
  • Сообщений: 2898
  • Репутация: +124/-14
  • שלום :)
Упр.
« Ответ #12 : Мая 12, 2002, 01:19:43 »
STRELEC, крута! ты всё правильно понял. :)

Old TСR, крута! Всё как-то настроением напоминает Тех Дификалтис.

 Крута крута крутааааа :) (кстати они ( http://www.racerxband.com ) недавно выложили нормальные табы ТД в jpeg-ах! Всем качать! :))

А давайте постить, вообще, интересные 1234-шнообразные риффы, фразы... Кто сколько знает или сможет придумать. Будет крута!!! :) (пусть Петручи слюни попускает :D)


зы: вот ещё простенькое упражнение для любителей легатто и 8-ми пальцевого теппинга :) :

1|-0--1--2--1--2--3--2--3--4--3--4|--5--4--5--6--5--6--7--6--7--8-|
х|.--h--h--p--h--h--p--h--h--p--h--|h--p--h--h--p--h--h--p--h--h---|

1|(8)--7--6--7--6--5--6--5--4--5--4|--3--4--3--2--3--2--1--2--1--0-|
х|---p--p--h--p--p--h--p--p--h--p--|p--h--p--p--h--p--p--h--p--p---|

1,2,3,4 -е лады играются левой рукой, 5,6,7,8 - правой.
:)
"There are times when simply thinking about your playing can improve it just as much as any amount of hours spent with a metronom" ..Guthrie Govan..

Оффлайн Old TСR

  • Эксперт
  • *****
  • Сообщений: 1295
  • Репутация: +4/-0
  • ††† 2002-2005
    • http://
Упр.
« Ответ #13 : Мая 12, 2002, 12:56:24 »
Там у RacerX не табы, а ноты с табами и минус ("Technical Difficulties") - я считаю это важно.

Кстати, если кто-то не знает как те аккорды в упражнении играть:
Fm7 (1x111x) |  Fm7/Ab (4x354x) | Gm7b5 (3x332x) | Gb13 (2x234x) | (цифры - лады, пальцы - сами уж)

Оффлайн Old TСR

  • Эксперт
  • *****
  • Сообщений: 1295
  • Репутация: +4/-0
  • ††† 2002-2005
    • http://
Упр.
« Ответ #14 : Мая 13, 2002, 03:19:10 »
.