Автор Тема: Растяжка!  (Прочитано 1959 раз)

0 Пользователей и 1 Гость просматривают эту тему.

Оффлайн Attitude Автор темы

  • Живу на форуме
  • *******
  • Сообщений: 7580
  • Репутация: +795/-190
  • I'm listening!
Растяжка!
« : Мая 29, 2002, 05:03:08 »
Привет всем!
Решил всерьёз заняться растяжкой! Но так что бы правильно, нет нужных упражнений!:(
Просто у меня довольно короткие пальцы (слава Богу хоть они нормально поставлены :rolleyes: )

Если у кого есть полезные упражнения, буду очень благодарен!!!:cool: :)

Я попробую по поиску, вроде уже обсуждали, но всего не найдёшь.

Спасибо!!
keeping it funky without slap and pop is skill.

Оффлайн Михайло у Лаптях

  • Опытный
  • ****
  • Сообщений: 867
  • Репутация: +6/-6
  • ---==censored==---
    • http://www.chaosalter.metalkings.ru/
Я конечно не фан.
« Ответ #1 : Мая 29, 2002, 07:18:36 »
Мож такое пригодится?
             ------5--7--8--10-------
Распалц:     1   2   3  4
По всем струнам скока есть..:)
             ------4--6--7--9---------
то ж самое...
Ну и ..гы....
             ------3--5--6--8--------

Если что я ни в чем не виноват...:)
Kramer FR422-офигительный, пятиметровый полупрозрачный провод-MT-2-Marshall-отличное замещение маленького члена.

Оффлайн Tempераментный Джааско

  • Частый посетитель
  • **
  • Сообщений: 123
  • Репутация: +0/-0
  • Зарегистрированный
    • http://
Растяжка!
« Ответ #2 : Мая 29, 2002, 10:34:02 »

|--6--5--4-3-2-1----|
|--8--7--6-5-4-3----|
|-10--9--8-7-6-5----|
|-12-11-10-9-8-7----|
|-------------------|
|-------------------|

я как обычно  ;)
Так все- никаких больше дискотек, только балет и керамика!!! (с) Масяня

Оффлайн Я Временный Релоад

  • Частый посетитель
  • **
  • Сообщений: 149
  • Репутация: +0/-0
  • Зарегистрированный
    • http://www.vai.com
Растяжка!
« Ответ #3 : Мая 29, 2002, 11:19:35 »
Согласен с Джаско :) Ессно это и наоборот нужно играть!

Ну а Михайло, помоему, немного не прав :) Например, у меня хуже всего тянется 3-й палец от 2-го, поэтому ему и нужно уделять больше внимания. Короче, вместо 5-7-8-10 играть 12-14-16-18. :)

Ещё можно растягивать по отдельности каждую пару пальцев. Так, наверное, даже перспективнее будет :) Начинать надо с 1-2 п--в, играть пул\хамеры на максимально большом расстоянии. Потом 1-3, 1-4, 2-3....3-4.

Ещё советую поиграть на фортепиано!!

;)

If your skin is green and you have no spleen - you're a cactus :)

Оффлайн Astar

  • Новичок
  • *
  • Сообщений: 96
  • Репутация: +1/-0
  • Зарегистрированный
    • http://
Растяжка!
« Ответ #4 : Мая 30, 2002, 02:13:57 »
петруччи в своей школке классные штуки в этом плане предлагает...
10--10--13--13--
11--12--12--11--
12--11--11--12--
13--13--10--10--
---------------------
---------------------
можно играть и арпеджио и аккордом... енто основная фигура, потом сдвигается на струну выше, потом еще на струну, а потом обратно - и тоже самое но все на лад ниже, а потом и еще ниже, и так пока не заломает.....
потом "отодвигается" "первый"(четвертый) палец на лад ниже и вся фигура повторяется, потом оба (3/4), потом раздвигаются 2 и 3, ну а в финале между кажым пальцем по ладу, а потом еще для особых маньяков можно и через струны пропускать, получится что-то вроде (енто для совсем шальных):
---------10----------------10----------------16----------------16---------
-------------------------------------------------------------------------------
------12---12-----------14---14---------14----14-----------12---12------
---14---------14----12----------12---12----------12-----14----------14--
-------------------------------------------------------------------------------
16---------------16----------------10----------------10------------------10
что-то типа того.. сам сыгарть такое не могу... и вряд ли в ближайший год смогу..:((



кто-то где-то ниоткуда...

Оффлайн Михайло у Лаптях

  • Опытный
  • ****
  • Сообщений: 867
  • Репутация: +6/-6
  • ---==censored==---
    • http://www.chaosalter.metalkings.ru/
Может опять мимо?
« Ответ #5 : Мая 30, 2002, 07:28:35 »
Я целотонную гамму еще играл, для растяжек...по одной струне со сдвигом 4-ре сыграл на тон первым(четвертым) пальцем поднялся(опустился)
А вообще у  меня пальцы просто длинные..:(
Kramer FR422-офигительный, пятиметровый полупрозрачный провод-MT-2-Marshall-отличное замещение маленького члена.

Оффлайн Anton

  • Опытный
  • ****
  • Сообщений: 938
  • Репутация: +13/-10
  • UL-Flieger
Растяжка!
« Ответ #6 : Мая 30, 2002, 14:25:49 »
А вот такое наигралось, на что-то похоже, не могу вспомнить:

--1--4--1--4--1--4--1--4-----2------4-2--3--1--3(или 2)                
--------------------------|------------------3--5----||
--------------------------|------------4--6----------||
--------------------2--6--|--4--4-4-6----------------||
--------------2--6--------|--------------------------||
--------2--6--------------|--------------------------||
--2--6--------------------|--------------------------||


--------------------------|------------------2--4---|
--------------------------|------------3--5---------|
--------------------1--5--|--3--3-3-5------------- -|
--------------1--5--------|-------------------------|
--------1--5--------------|-------------------------|
--1--5--------------------|-------------------------|

лучше, наверное, начинать снизу грифа где-нибудь с 7-го лада или ниже и подниматься к 1-му, тогда получится растяжка... :D Сверху пальцовка левой руки...


"Родное правительство! Мы пешком пойдем из этого Парижа в Новосибирск, только разрешите нам вернуться..."

Оффлайн Old TСR

  • Эксперт
  • *****
  • Сообщений: 1295
  • Репутация: +4/-0
  • ††† 2002-2005
    • http://
Советы из камеры пыток
« Ответ #7 : Мая 31, 2002, 03:52:20 »
Обратите внимание, что самая главная растяжка делается между 1 и 2- м пальцами. Это очень хорошо видно на видео (сорри за каламбур) Сатриани в Сан Франциско.
А вот еще один иезуитский способ увеличить растяжку между пальцами вплоть до разрыва сухожилий - обхватываете (для начала 1-м и 2-м) пальцами сзади гриф у первого лада так, чтобы указательный оказался над 6 струной, а 2-й под первой струной. Сгибаете их, чтобы промежуток между ними прикоснулся к грифу (типа, "шпагат") и дальше начинаете медленно ползти вверх по грифу, сгибая-разгибая пальцы. Сразу после этого играть может и не получится, но промежуток между пальцами увеличится (как там: "Я даже сесть не могу. Спасибо за прекрасный праздник. Анна").
Только делать аккуратно, можно реально повредить руку.

Еще хорошо поиграть пентатонику по три звука на струне или арпеджио минорных трезвучий (на одной струне) а ля Ван Хален.
Или попытаться выучить аккордовую тему "Home" Holdsworth'a ;)

Оффлайн Attitude Автор темы

  • Живу на форуме
  • *******
  • Сообщений: 7580
  • Репутация: +795/-190
  • I'm listening!
***Old TСR
« Ответ #8 : Мая 31, 2002, 04:24:24 »
А можно этот "Home" как-нить посмотреть?:)
Или вообще что-нибудь из Holdsworth`a!!
Очень хоца посмотреть как он это всё правильно играет!!:o
keeping it funky without slap and pop is skill.

Оффлайн Old TСR

  • Эксперт
  • *****
  • Сообщений: 1295
  • Репутация: +4/-0
  • ††† 2002-2005
    • http://
Растяжка!
« Ответ #9 : Мая 31, 2002, 04:28:48 »
Так я и знал, что мне придется сканить :mad:
Ладно, только чуть позже, сейчас запарка.
Только те ноты, не переделав, никто сыграть не может :(

Оффлайн Attitude Автор темы

  • Живу на форуме
  • *******
  • Сообщений: 7580
  • Репутация: +795/-190
  • I'm listening!
***Old TСR
« Ответ #10 : Мая 31, 2002, 04:57:50 »
Так там всё-таки не правильная таблатура?? Ну хотя бы!:)
А с каких альбомов, вообще откуда это?

Я в нэте только несколько табов нашёл, правда их сам Вай транскрибировал!!:cool:
keeping it funky without slap and pop is skill.

Оффлайн Old TСR

  • Эксперт
  • *****
  • Сообщений: 1295
  • Репутация: +4/-0
  • ††† 2002-2005
    • http://
Re: ***Old TСR
« Ответ #11 : Мая 31, 2002, 11:47:05 »
Цитировать
Originally posted by Attitude
Так там всё-таки не правильная таблатура?? Ну хотя бы!:)
А с каких альбомов, вообще откуда это?

Я не знаю правильная ли там таблатура. Думаю, что - да. Но, если я не ошибаюсь у AH гитара  с уменьшенной мензурой (с какой врать не стану - не помню), огромные руки и гибкие к тому же. То есть медленно то, что там написано сыграть можно. Это с альбома "Metal Fatique", оттуда же, откуда ваевская транскрипция "Devil Take Hindmost". В общем-то я сХолсвортом познакомился через этот альбом (и еще Mind Games), поэтому они у меня самые любимые.

Цитировать
Я в нэте только несколько табов нашёл, правда их сам Вай транскрибировал!!:cool:

Ну Вай там пишет в предисловии, что снять-то он снял (и не такое приходилось записывать за Заппой), но в какой аппликатуре это играет Холсворт он не понимает.
Есть еще буклет к видео школе AH. Кажется там правильные аппликатуры - скорее всего параллельно завели звук по миди.
Руки не доходят до Холдсворта - все хотят Ваню и Старияни.

Оффлайн SB

  • Завсегдатай
  • ***
  • Сообщений: 314
  • Репутация: +1/-10
упр.
« Ответ #12 : Мая 31, 2002, 16:24:09 »
Могу предложить такой способ растяжки.
Просто-напросто надо играть гаммы по 4-е ноты на струне, причем _четырьмя_ пальцами!
Скажем, в натуральном Ми-миноре это будет так (на 6-й стр):
2-3-5-7
Ну а дальше - переходишь на 5-ю стр, и либо продолжаешь гамму, либо те же 2-3-5-7 по всем струнам....
Интереснее, конечно, в гармонических тональностях играть...;)

Оффлайн Tempераментный Джааско

  • Частый посетитель
  • **
  • Сообщений: 123
  • Репутация: +0/-0
  • Зарегистрированный
    • http://
Растяжка!
« Ответ #13 : Мая 31, 2002, 16:30:39 »
ИМХО, наиболее эфективны растяжки в акордах, причем эти акорды следует брать с разных пальцев, например, если вот такой акорд:

|------|
|------|
|-1----|
|-2----|
|-2----|
|-4----|

начинать ставить с указательного пальца , а потом ставить все остальные и в конце мизинец, то это будет совсем не так, как еслибы вы ставили сначала мизинец а потом все остальное.
Так все- никаких больше дискотек, только балет и керамика!!! (с) Масяня

Оффлайн Anton

  • Опытный
  • ****
  • Сообщений: 938
  • Репутация: +13/-10
  • UL-Flieger
Растяжка!
« Ответ #14 : Июня 01, 2002, 03:22:05 »
Сочинил такую игрушку-растяжку. Сочинял под свои пальцы, пальцовка указана. Послушать миди можно тут:
http://jlpt2.narod.ru/mp3/ex1.mid

  --1--4--1--4--2--4--3--1-----3--2--4--3--1--4--3--1--
E||--3--8--------------------|--------------------------|
B||--------4--8--------------|--------------------------|
G||--------------5--8--7--4--|--------------------------|
D||--------------------------|--6--5--------------------|
A||--------------------------|--------8--6--5-----------|
E||--------------------------|-----------------8--7--4--|


--1--4--2--3--1--3--2--1-----1--1--3--2--1--3--2--1--
--------------------------|-----------------------3--|
--------------------------|--------------3-----4-----|
--------------------------|-----------4-----5--------|
-----------5--3-----------|--------5-----------------|
--------5--------6--5-----|-----3--------------------|
--3--7-----------------7--|--3-----------------------|


--1--2--1--2--1--4--2--4-----3--4--3--4--3--1--4---3--  
--8-----4-----3--------7--|---------------------------|
-----------------6--4-----|--6--------9---------------|
-----5-----4--------------|-----8--7------------------|
--------------------------|---------------------------|
--------------------------|--------------8--6---------|
--------------------------|--------------------10--8--|


--2--1--4---1--4---1--4---2-----1-                                            
-----------------------------|--8------7-----10--------|--12----------------||
--------------------------9--|-----9---9-----9---------|--8-----------------||
----------------------10-----|-----10--10----10--------|--9-----------------||
---------------10--6---------|-----11--12--------------|--8-----------------||
-----5--10--6----------------|-------------------------|--10----------------||
--7--------------------------|---------------8---------|--------------------||
"Родное правительство! Мы пешком пойдем из этого Парижа в Новосибирск, только разрешите нам вернуться..."