Автор Тема: памажити люди добрые чем можети  (Прочитано 565 раз)

0 Пользователей и 1 Гость просматривают эту тему.

Оффлайн N.I.B Автор темы

  • Новичок
  • *
  • Сообщений: 9
  • Репутация: +0/-0
  • Зарегистрированный
    • http://
памажити люди добрые чем можети
« : Января 05, 2003, 14:51:18 »
я вот что спросить хотел

есть ли какие упражнения для тренировки скорости ?   в нете я не нашел ничего на эту тему..  разве что только заумные статейки супер гитаристоф  про арпеджии, сольфеджии и прочие не известные мне субстанции
гитару я взял в руки пару недель назад, поэтому если не трудно, то без словей типа "стаккато" и  прочих не от мира сего :)

заранее признателен

Оффлайн yustas

  • Новичок
  • *
  • Сообщений: 10
  • Репутация: +0/-0
  • Зарегистрированный
    • http://
Попробуй...
« Ответ #1 : Января 05, 2003, 15:26:55 »
  Загляни на сайт guitar.ru там есть раздел Мастер-класс Уроки Guitar Studio. Там есть две статьи о скорости и о принцыпах занятий, что замечу не маловажно, так вот одна называется "Золотое упражнение для правой руки", кроме тремоло заумных слов там нет, так что будет всё понятно. Вторая статья - Дмитрий Малолетов Общие рекомендации гитаристам. Вот, посмотри, может что-то почерпнешь для себя. Удачи!!!

Оффлайн Tritopora

  • Завсегдатай
  • ***
  • Сообщений: 255
  • Репутация: +0/-2
  • Слоник питательный
памажити люди добрые чем можети
« Ответ #2 : Января 06, 2003, 00:03:29 »
Для тренировки скорости - гаммы под метроном в позиции, если это заумно, то играется, например, соль мажорная гамма так:
Играется по 4 ноты, с акцентом на 1-ю из них.

----------------------------------3-5-7-5-3---------------------------------
-----------------------------5-7--------------7-5----------------------------
----------------------4-5-7------------------------7-5-4--------------------
---------------4-5-7---------------------------------------7-5-4------------
--------3-5-7------------------------------------------------------7-5-3-----
-3-5-7---------------------------------------------------------------------7-5

и снова.

Есть хорошее упражнение у Петруччи и для правой и для левой руки, подходит и для переменного штриха (сначала - только переменный) и для свипа. На любых струнах - попробуй и с 6-й и с 4-й, поскольку звукоизвлечение отрабатывать надо и на низких и на высоких струнах. Один палец - один лад, Сыграл - сдвигаешь позицию на один лад вверх. Доиграл, например, до 12-й позиции - теперь сдвигай обратно.

-------4-1-----------2-5------
-----3----2--------3-----4----
---2--------3----4---------3--
-1-----------4-5-------------2
-
-

Сложное это занятие - делать из мопса ротвейлера

Оффлайн N.I.B Автор темы

  • Новичок
  • *
  • Сообщений: 9
  • Репутация: +0/-0
  • Зарегистрированный
    • http://
памажити люди добрые чем можети
« Ответ #3 : Января 06, 2003, 09:55:10 »
всем огромный 10х :)