Автор Тема: Видео (арпеджио) Jason Becker  (Прочитано 3018 раз)

0 Пользователей и 1 Гость просматривают эту тему.

Оффлайн mESSiAh Автор темы

  • Опытный
  • ****
  • Сообщений: 576
  • Репутация: +3/-4
  • Зарегистрированный
    • http://rockintensive.by.ru
Видео (арпеджио) Jason Becker
« : Февраля 01, 2002, 12:29:34 »
Всем, кто инересуется техникой Джейсона Бекера, в частности его блестящими свип-арпеджио, качать отсюда:



Правда для просмотра нужен RealPlayer, да в добавок при запуске он говорит, что нужен какой -то плагин...ну с этим проблем нет, он сам коннектится на свой сайт (Реал Плеер) и скачивает плагин - 202 кб, ну а потом можно смотреть без проблем. Для облегчения понимания сути дела привожу табы на енто арпеджио. Смотрите и учитесь :D

1--12--7-----------7-12--7-----------7-12--7---------------------------7--
2---------8-----8-----------8-----8-----------8-----------------------8-----
3------------9-----------------9-----------------9-----------------9--------
4---------------------------------------------------9-----------9-----------
5-----------------------------------------------------10----10--------------
6--------------------------------------------------------12-----------------

A
1-12--9-----------9-12--9-----------9-14--9-----------9-12--9---------9
2------10----10----------10----10----------10----10----------10----10-
3----------9-----------------9-----------------9-----------------9--------
4--------------------------------------------------------------------------
5--------------------------------------------------------------------------
6--------------------------------------------------------------------------

Bm
1-14-10----------10-14-10----------10-14-10----------10-14-10---------14
2-------12----12----------12----12----------12----12----------12----12-
3----------11----------------11----------------11----------------11--------
4--------------------------------------------------------------------------
5--------------------------------------------------------------------------
6--------------------------------------------------------------------------

Bm
1-19-14----------------------------14-19-14---------------------------14--
2-------15----------------------15----------15----------------------15-----
3----------16----------------16----------------16----------------16--------
4-------------16----------16----------------------16----------16-----------
5----------------17----17----------------------------17----17--------------
6-------------------19----------------------------------19-----------------

D
1-17-14----------14-17-14----------14-19-14----------14-17-14---------14
2-------15----15----------15----15----------15----15----------15----15-
3----------14----------------14----------------14----------------14------
4--------------------------------------------------------------------------
5--------------------------------------------------------------------------
6--------------------------------------------------------------------------

B
1-18-14----------14-18-14----------14-21-14----------14-18-14---------14
2-------14----14----------14----14----------14----14----------14----14-
3----------15----------------15----------------15----------------15------
4--------------------------------------------------------------------------
5--------------------------------------------------------------------------
6--------------------------------------------------------------------------

Bm
1-19-14----------------------------14-19-14---------------------------14
2-------15----------------------15----------15----------------------15-----
3----------16----------------16----------------16----------------16--------
4-------------16----------16----------------------16----------16-----------
5----------------17----17----------------------------17----17--------------
6-------------------19----------------------------------19-----------------

Bm
1-19-14----------------------------14-19-----------------------------------
2-------15----------------------15-----------------------------------------
3----------16----------------16--------------------------------------------
4-------------16----------16-----------------------------------------------
5----------------17----17--------------------------------------------------
6-------------------19-----------------------------------------------------

P.S.: Можно конечно сыграть эти арпеджио с более приемлемой аппликатурой, но я привел те табы, которые давались в качестве коментария к этому видеосюжету.
Two Hands -> Ibanez RG380DX(Japan) -> H&K TubeMan II -> Marshall MG50DFX
http://www.rockintensive.by.ru

Оффлайн Reload

  • Эксперт
  • *****
  • Сообщений: 2898
  • Репутация: +124/-14
  • שלום :)
Видео (арпеджио) Jason Becker
« Ответ #1 : Февраля 01, 2002, 14:29:36 »
mESSiAh, воистину, пасибки! Особенно за табы!
 :D
"There are times when simply thinking about your playing can improve it just as much as any amount of hours spent with a metronom" ..Guthrie Govan..

Оффлайн oZZZy

  • Эксперт
  • *****
  • Сообщений: 1086
  • Репутация: +1/-1
  • кадавр
    • http://
Видео (арпеджио) Jason Becker
« Ответ #2 : Февраля 01, 2002, 17:56:09 »
:D :D :D :D :D :D :D :D :D :D

Оффлайн Attitude

  • Живу на форуме
  • *******
  • Сообщений: 7580
  • Репутация: +795/-190
  • I'm listening!
Видео (арпеджио) Jason Becker
« Ответ #3 : Февраля 01, 2002, 18:54:56 »
Эта вещь называется "Altitudes"!!
Немного неправильная таблатура.

Я где-то месяц назад посылал кучу табов в *ptb хозяину, в том числе и полную версию "Altitudes", но до сих пор ни слуху ни духу! :confused: ;)

Если кто желает, могу переслать.
keeping it funky without slap and pop is skill.

Оффлайн Miracle

  • Новичок
  • *
  • Сообщений: 29
  • Репутация: +0/-0
  • Зарегистрированный
    • http://
to Attitude
« Ответ #4 : Февраля 01, 2002, 21:38:03 »
Желает!
Пришли пожалуйста!
juice1@inbox.lv

Оффлайн mESSiAh Автор темы

  • Опытный
  • ****
  • Сообщений: 576
  • Репутация: +3/-4
  • Зарегистрированный
    • http://rockintensive.by.ru
2Attitude
« Ответ #5 : Февраля 02, 2002, 16:42:51 »
Я прекрасно знаю что это "Altitudes", и у меня тоже есть полная версия в формате *ptb, где действительно арпеджио играется по другому (но я играю третьим вариантом - еще более легким :D ), а табы привел есесно для начинающих и для сравнения. Они были под этим видеофрагментом...их какой-то японец снимал (сразу видно, потому что по ним сыграть эти 6 струнные арпеджио очень затруднительно :D )

Гораздо легче играть так (для меня по крайне мере):

Bm
1-19-14-------------------------------14-
2-------15-------------------------15-----
3----------16-------------------16--------
4-------------16-------------16-----------
5----------------17--14--17--------------
6-------------------------------------------

Two Hands -> Ibanez RG380DX(Japan) -> H&K TubeMan II -> Marshall MG50DFX
http://www.rockintensive.by.ru

Оффлайн Attitude

  • Живу на форуме
  • *******
  • Сообщений: 7580
  • Репутация: +795/-190
  • I'm listening!
***mESSiAh
« Ответ #6 : Февраля 02, 2002, 16:51:04 »
Так не легче, просто звучит по другому!!!:D
А японцы вообще акробаты! Так сыграть по-моему вообще невозможно, если у тебя 6-ти пальцев нет!:D
keeping it funky without slap and pop is skill.

Оффлайн Reload

  • Эксперт
  • *****
  • Сообщений: 2898
  • Репутация: +124/-14
  • שלום :)
Видео (арпеджио) Jason Becker
« Ответ #7 : Февраля 02, 2002, 18:53:51 »
Та нармальна! Первым пальцем делаешь слайд с 14(1) на 15(2), и всё путём :)
"There are times when simply thinking about your playing can improve it just as much as any amount of hours spent with a metronom" ..Guthrie Govan..

Оффлайн oZZZy

  • Эксперт
  • *****
  • Сообщений: 1086
  • Репутация: +1/-1
  • кадавр
    • http://
Видео (арпеджио) Jason Becker
« Ответ #8 : Февраля 02, 2002, 18:55:04 »
хммм...а мне легче кажется в первом приведенном варианте...естесственно, я ее еще не могу о нормальному сышрать, но судя по всему это вполне реально :) пусть не в таком темпе, но всеже...по крайней мере 24-й каприс после этого кажется детским лепетом :) шучу...бэкер на видео вроде так играет.....вопрос - как пальтцы ставить во втором предложенном mESSiAh варианте ?

2Attitude - скинь мне плиз на мыло эту самую табу, плиз...
а заодно, что это за прога такая, которая эти файлы (ptb) смотрит....вроде чтото типа power tab? и где ее скачать можно, если знаешь...мыло вроде знаешь мое...сэнкс заранее...

Оффлайн mESSiAh Автор темы

  • Опытный
  • ****
  • Сообщений: 576
  • Репутация: +3/-4
  • Зарегистрированный
    • http://rockintensive.by.ru
2ALL
« Ответ #9 : Февраля 02, 2002, 20:04:13 »
ВНИМАНИЕ!!! Показываю один раз свою фирменную распальцовку!!! :D

Наверху показаны пальцы.

---4-1--2--3--3--4---1---4--3--3---2---1-

1-19-14-------------------------------14-
2-------15-------------------------15-----
3----------16-------------------16--------
4-------------16-------------16-----------
5----------------17--14--17--------------
6-------------------------------------------

На 3 и 4 струне я беру на 16 ладу ноты одним третьим пальцем, т.е. перекатываю его при игре с третьей струны на четвертую (это очень распространненый прием и им часто пользуется Мальмстин в своих арпеджио). При правильном исполнении звучит все очень чисто и очень быстро....по крайне мере я так себя давно приучил и так играть мне намного легче.
Two Hands -> Ibanez RG380DX(Japan) -> H&K TubeMan II -> Marshall MG50DFX
http://www.rockintensive.by.ru

Оффлайн mESSiAh Автор темы

  • Опытный
  • ****
  • Сообщений: 576
  • Репутация: +3/-4
  • Зарегистрированный
    • http://rockintensive.by.ru
***2oZZZy
« Ответ #10 : Февраля 02, 2002, 20:31:54 »
Что такое PowerTab? - это классный нотный гитарный редактор, по многим параметрам превосходящий GuitarPro3, он совершенно бесплатен. Скачать можешь с его родного сайта в разделе Downloads:

http://powertab.guitarnetwork.org/

З.Ы.: Справа увидишь в рамке "View a list of web sites offering Power Tab scores" - здесь линки сайтов, где есть нехилая куча табов в его формате.
Two Hands -> Ibanez RG380DX(Japan) -> H&K TubeMan II -> Marshall MG50DFX
http://www.rockintensive.by.ru

Оффлайн oZZZy

  • Эксперт
  • *****
  • Сообщений: 1086
  • Репутация: +1/-1
  • кадавр
    • http://
Видео (арпеджио) Jason Becker
« Ответ #11 : Февраля 02, 2002, 20:57:50 »
2mESSiAh - сэнкс тебе большой...завтра попробую поюзать твою фирменную распальцовку :)

Оффлайн Gitarero

  • Частый посетитель
  • **
  • Сообщений: 245
  • Репутация: +0/-0
  • Зарегистрированный
2 Attitude
« Ответ #12 : Февраля 02, 2002, 21:44:43 »
Если хочешь заполучить табы Showtime , напиши свой почтовый адрес.

Оффлайн Reload

  • Эксперт
  • *****
  • Сообщений: 2898
  • Репутация: +124/-14
  • שלום :)
Видео (арпеджио) Jason Becker
« Ответ #13 : Февраля 03, 2002, 17:53:53 »
Не, всё таки первый вариант играть намного легче. И главное, получается чище и почти не сбиваешься с ритма. А 6-я струна только помогает добиться какого-то экзотического звука!

--4--1--2--3--1--2--3--2--1--3--2--1--4
 
1-19-14----------------------------14-19-14---------------------------14--
2-------15----------------------15----------15----------------------15-----
3----------16----------------16----------------16----------------16--------
4-------------16----------16----------------------16----------16-----------
5----------------17----17----------------------------17----17--------------
6-------------------19----------------------------------19-----------------

"There are times when simply thinking about your playing can improve it just as much as any amount of hours spent with a metronom" ..Guthrie Govan..

Оффлайн oZZZy

  • Эксперт
  • *****
  • Сообщений: 1086
  • Репутация: +1/-1
  • кадавр
    • http://
Видео (арпеджио) Jason Becker
« Ответ #14 : Февраля 03, 2002, 17:57:22 »
2Reload - согласен с тобой! только я шестую струну мизинцем прижимаю....